Uzun İnce Bir Yoldayım Gitar Akor Tab Notası

  1. Uzun ince bir yoldayım, Gidiyorum gündüz gece
    Am G Am Am G Am
    Bilmiyorum ne haldeyim, Gidiyorum gündüz gece
    G Am Dm
    Gündüz gece gündüz gece oyyy
    Am G Am


    Dünyaya geldiğim anda, Yürüdüm aynı zamanda
    Am G Am Am G Am
    İki kapılı bir handa, Gidiyorum gündüz gece
    G Am Dm
    Gündüz gece gündüz gece oyyy
    Am G Am


    Şaşar Veysel işbu hale, Gah ağlayı gah güle
    Am G Am Am G Am
    Yetişmek için menzile, Gidiyorum gündüz gece
    G Am Dm
    Gündüz gece gündüz gece oyyy
    Am G Am





    E:------------------------0---0---------------------|
    B:-1-3-3-1p0---1-0----------3---1-3-1p0---1-0-------|
    G:-----------2-----2-2-2----------------2-----2-2-2-|
    D:--------------------------------------------------|
    A:--------------------------------------------------|
    E:--------------------------------------------------|



    E:-2-3-3-2-3--3-2-0-3-2-2--2-0---2-0-0--0-----0-----|
    B:-----------------------------3----------3-1---3-3-|
    G:--------------------------------------------------|
    D:--------------------------------------------------|
    A:--------------------------------------------------|
    E:--------------------------------------------------|

     

     

    MiSS-FENER - 20.12.2008 - 20:02



Benzer Konular

  1. Uzun İnce Bir Yoldayım Flüt Notası
    Konuyu Açan: Nehir, Forum: Notalar.
    Cevaplar: 57
    Son Mesaj : 09.05.2014, 15:41
  2. Uzun İnce Bir Yoldayım
    Konuyu Açan: Sylar, Forum: Hayvan Resimleri.
    Cevaplar: 3
    Son Mesaj : 06.06.2012, 14:15
  3. Uzun İnce Bir Yoldayım Nota
    Konuyu Açan: ZELAL, Forum: Notalar.
    Cevaplar: 0
    Son Mesaj : 04.03.2012, 00:41
  4. Doğa İçin Çal 2 - Uzun İnce Bir Yoldayım
    Konuyu Açan: Pedaliza, Forum: Videolar.
    Cevaplar: 0
    Son Mesaj : 10.05.2010, 00:39
  5. Uzun İnce Bir Yoldayım
    Konuyu Açan: eminpasha, Forum: Derin Duygular.
    Cevaplar: 8
    Son Mesaj : 07.05.2005, 18:16

copyright

Soru Cevap