REKLAM




+ Konuyu Cevapla

Hababam Sınıfı Gitar Tab Notası

  1. Yazan: MiSS-FENER
    No Avatar

    REKLAM


    E|---0-----------------------------------------------
    B|-------0---1-3-1-0------------------------0--------
    G|---------------------2---1-1-------1-1--2-------1-2
    D|-------------------------------3------------2-3----
    A|---------------------------------------------------
    E|---------------------------------------------------


    E|----0----------------------------------------------
    B|-0----0--1-3-1-0--------------------0--------------
    G|-----------------2-1-1-----------------2--1--------
    D|-------------------------3-3-0-2-------------3-2---
    A|---------------------------------------------------
    E|---------------------------------------------------


    Facebook




    Üyelik

  2. Yazan: KaRaKıZ
    No Avatar
    teşekkürle
  3. Yazan: alkaor
    No Avatar
    E|12-10-12------------------------------------------------------------------
    B|----------12-10-12---9-----9--9-------------------------------------------
    G|----------------------- 10-------10-9--|-10-10-9--------10-9--9^^^9-------
    D|-------------------------------------------------12-12--------------------
    A|--------------------------------------------------------------------------
    E|--------------------------------------------------------------------------


    E|12-10-12---------------------------------------------------12-12----------
    B|----------12-10-12----9-----9--9---------------9----12--------------------
    G|------------------------10-------10-9--|-9--------------------------------
    D|--------------------------------------------------------------------------
    A|--------------------------------------------------------------------------
    E|--------------------------------------------------------------------------


    E|12----7------8-10-8-7-----------------------------------------------------
    B|-----------------------10-----9-9------9-9-10---12-|--------9-10-12-------
    G|-----------------------------------10-----------------9-10----------------
    D|--------------------------------------------------------------------------
    A|--------------------------------------------------------------------------
    E|--------------------------------------------------------------------------


    E|12----7-----8-10-8-7------------------------------------------------------
    B|----------------------10--|--9-9---------------------12-10-9--------------
    G|-----------------------------------10-10-------9----------------10-9------
    D|------------------------------------------12------------------------------
    A|--------------------------------------------------------------------------
    E|--------------------------------------------------------------------------


    E|--------------------------------------------------------------------------
    B|-------------------------9-10-9-10-12-|----------------------9-10-9-10-12-
    G|10-10-9----------10-9-|---------------|-10-10-9---------10-9|-------------
    D|---------12-12----------------------------------12-12---------------------
    A|--------------------------------------------------------------------------
    E|--------------------------------------------------------------------------


    E|--------------------------------------------------------------------------
    B|10-10-9---------10-9-|-9-10-9-10-12-|-12-12-10---9-9-12----10^^^^^10--|---
    G|---------10-10------------------------------------------------------------
    D|--------------------------------------------------------------------------
    A|--------------------------------------------------------------------------
    E|--------------------------------------------------------------------------


    E|--------8--11--12---7-8-7-------------------------------------------------
    B|10-12-----------------------10-9------------------------------------------
    G|-----------------------------------10-9---9^^^^^9-------------------------
    D|--------------------------------------------------------------------------
    A|--------------------------------------------------------------------------
    E|--------------------------------------------------------------------------


    E|----------------------7-8-7-----------------------------------------------
    B|-----------------------------10-----9-------------------------------------
    G|10-10-9---------10------------------------10----9^^^^^^9------------------
    D|---------12-12------------------------------------------------------------
    A|--------------------------------------------------------------------------
    E|--------------------------------------------------------------------------


  1. Yazan:
    no avatar


    REKLAM



Benzer Konular

  1. Hababam Sınıfı
    Konuyu Açan: moon_angel, Forum: Notalar.
    Cevaplar: 4
    Son Mesaj : 30.05.2013, 11:13
  2. Hababam Sınıfı
    Konuyu Açan: BaLiZzA, Forum: Bunları Biliyormuydunuz.
    Cevaplar: 0
    Son Mesaj : 29.05.2013, 18:11
  3. hababam sınıfı
    Konuyu Açan: Kayıtsız Üye, Forum: Soru - Cevap.
    Cevaplar: 3
    Son Mesaj : 18.05.2010, 18:56
  4. Hababam Sınıfı
    Konuyu Açan: Sylar, Forum: Her Telden Resimler.
    Cevaplar: 4
    Son Mesaj : 22.11.2009, 18:20
  5. Hababam Sınıfı
    Konuyu Açan: Dijar Asmen, Forum: Nostaljik Filmler.
    Cevaplar: 0
    Son Mesaj : 21.11.2009, 16:33

copyright

Soru Cevap

izmit düğün salonları - grafimx